PageViews: 594 / 552 / 504 hits / 69 nets since Apr 10 2018
home updates download manual documents feedback search stats
DeleGateIcon

Access Counter and Statitics

DeleGate/9.9.13
2019-09-20/15:32:47
Nets Hits Refs Mail info manual SHTML source
Access Counters and Statistics by DeleGate
PageViews: 552 hits / 69 nets

Access counter and statistics by DeleGate

Yutaka Sato @ DeleGate.ORG
May 11, 2006

Basic functionality for access counters and real-time statistics were built-into DeleGate/9.2.0. It is applied not only to access count from clients but also to general counts including Referers, errors, and more, in future. So far, the following counters have been implemented.

  • count for each requested URL on origin/proxy HTTP DeleGate (example)
  • count for each Referer URL on origin/proxy HTTP DeleGate (example)
  • count for each transferred file on origin FTP DeleGate (example)
  • count for each error or rejection in SMTP DeleGate (example)
  • count for each session of FTP, SMTP, NNTP DeleGate (example)
  • count for each packet incoming to DNS DeleGate (example)
This built-in counter is intended to be used to show real-time statistics of DeleGate servers too. It will be convenient to be able to get statistics in real-time and without keeping a large volume of log files.


Basic Usage

Counters are enabled with the COUNTER parameter, as follows in the simplest.

    COUNTER=do

A SSI tag "COUNTER" is introduced to show values in counters. The simplest example is the access counter of the SHTML page including the tag.

    <!--#echo var=COUNTER -->
    594
There are three types of counters based on (client's) IP address; the first one is incremented on every hit, the second one is incremented excluding repetitive hit by the same IP address, and the third one is incremented excluding repetitive hit by one of last ten IP addresses. Each counter is represented with %T, %U, and %V respectively in a format string given by the fmt="formatString" attribute.
    <!--#echo var=COUNTER fmt="%T : %U : %V hits / %N nets (since %tC)" -->
    594 : 552 : 504 hits / 69 nets (since Apr 10 2018)
Yet another count is "network count" which is represented as "%N" in the format string. It is introduced to be a metrics of the coverage or distribution of (client's) IP addresses on the address space. It is not a counter incremented on each hit, but the number of bits in a bit map of network addresses. In the current implementation, the width of the network mask is 10 bits, therefore the logical maximum number of "%N" is 1024. The map of networks can be shown with "%M" as follows.
    <!--#echo var=COUNTER fmt="%M" -->
    
      0.0.0.0 -------- -----X-- ----X--X -------- -------- -------- -----X-X --------
     16.0.0.0 ----5--- ---X---- -------- ----X--- -------- -------- -------- ------X-
     32.0.0.0 -------- -X----XX -------- -------- -2------ -------- -----X-- X--4----
     48.0.0.0 -------- ----XX-- --X----- 8XXX---- -------- ----X--- X------- -XX-----
     64.0.0.0 6---X--X --91---- -------- -------- -------- -------- -------- X-------
     80.0.0.0 ---X--X- -------- -------- -------- -------- -------- -------- --XX---X
     96.0.0.0 -------- -------- -------- -------- ---X---- X------- --X----- -------X
    112.0.0.0 ---X---- ---X---- -------- -------- -------X -------- -------- --------
    128.0.0.0 -X------ -------- -------- -------- -------- ---X---- -------- --------
    144.0.0.0 -X------ -------- ---X---- -------- -------- -------- ----0--- -X---X--
    160.0.0.0 -------- ---X--X- -------- -------- -------- -------- -------X ------X-
    176.0.0.0 X------- X--X---- -------- -------- ----X--- -------- X------- --------
    192.0.0.0 -X------ -------X -------- -------- -------- ------X- -------- ----3-X-
    208.0.0.0 -------- -------- -------- -------- ---X-X-- -------- ---X---- --------
    
In the map, each true bit is marked with 'X' while false bit is marked with '-'. The recent ten networks are marked with a digit from '0' to '9'. The recent ten IP addresses can be shown with "%L" as follows.
    <!--#echo var=COUNTER fmt="%L" -->
    
    LAST[0][  0] 9D30006C 157.A
    LAST[1][  0] 42F000D9  66.D
    LAST[2][  0] 28400031  40.B
    LAST[3][  0] CF20006E 207.A
    LAST[4][  0] 2EE00095  46.D
    LAST[5][  1] 11300095  17.A
    LAST[6][  0] 403000AE  64.A
    LAST[7][  0] CF200001 207.A
    LAST[8][  0] 3620007D  54.A
    LAST[9][  0] 42A000B3  66.C
    
This table of recent 10 addresses is managed in the LRU order, that is the entry of the least recentry hit is pushed out from the table.

    <!--#echo var=COUNTER fmt="Hits %T : %mHT/hour, %mdT/day, %mmT/month" -->
    Hits 594 : 0.0/hour, 1.1/day, 34.9/month

PageViews: 552 hits / 69 nets
[ The source of this SHTML file (139 hits) ]